Song name
# A B C D E F G H I J K L M N O P Q R S T U V W X Y Z

Happy Mondays - Holiday tab

Happy Mondays - Holiday Riff

e|--------------------------------------|
b|----13---12--10----------10-----------|
g|----13---12--10----------10-----------|
d|-0-----0-----------10-12----12-10-0---|
a|----------------12--------------------|
e|--------------------------------------|

e|--------------------------------------|
b|----13---12--10----------10-----------|
g|----13---12--10----------10-----------|
d|-0-----0-----------10-12----12-10-0---|
a|----------------12--------------------|
e|--------------------------------------|

Twice because I cannot submit due to length.
Tap to rate this tab
# A B C D E F G H I J K L M N O P Q R S T U V W X Y Z