Song name
# A B C D E F G H I J K L M N O P Q R S T U V W X Y Z

Happy Mondays - Kinky Afro tab

This is my first tab, so here goes.

I've used elements from the other two tabs for this, but i think this is how the 
main riff should be played;

e|-----3------------------------------------|
B|--------------------------5---------------|
G|-5b6---5b6r5-3----------3---3--5----------|
D|----------------5-----3-------------------|
A|--------------------3---------------------|
E|------------------------------------------|

The Rhythm is t hese two chordss repeated, listen to the song for strumming patterns;
G minor-C7
e|-3-----3----------|
B|-3-----5----------|
G|-3-----3----------|
D|-5-----5----------|
A|-5-----3----------|
E|-3-----3----------|

And the riff after the chorus should be;
e|------------------------------------------|
B|-5----6-----8-----8-----8-----8-----8-----|
G|-7b9--8b10--10b12-10b12-10b12-10b12-10b12-|
D|------------------------------------------|
A|------------------------------------------|
E|------------------------------------------|

Thanks to 'bongo6969' and the other tabber, they helped alot with this song.
Tap to rate this tab
 
# A B C D E F G H I J K L M N O P Q R S T U V W X Y Z