Happy Mondays - Stinkin Thinkin tab

Stinkin Thinkin - Happy Mondays

E -------------------------------------------------|
B ------------0----------------------0--------0----|  Main Riff 
G ---------0-----2-2^--0----------0-----2-2^--0----|
D ---0--2-------------------0--2-------------------|
A -------------------------------------------------|
E -------------------------------------------------|


E --12-12-12-12--------------------------------------------|
B --13-13-13-13--12/15-----12-12---------------------------|
G --12-12-12-12--12/15-----12-12---------------------------|
D ---------------12/15-----12-12---14-14-------------------| Verse Riff
A ---------------------------------14-14-------------------|
E ---------------------------------------------------------|




E ------------------------------------------------------------------------|
B ---12----------12------12----------12-----------12/15-15-15-15-15-15-15-|
G ---12----------12------12----------12-----------12/15-15-15-15-15-15-15-|
D ---12--14-14---12--14--12---14-14--12--14--14---12/15-15-15-15-15-15-15-| 
A -------14-14-------14-------14-14------14--14---------------------------|
E ------------------------------------------------------------------------|
                     ^2nd Verse Riff
Tap to rate this tab
 
# A B C D E F G H I J K L M N O P Q R S T U V W X Y Z