Happy Mondays - Do It Better tab

Happy Mondays - Do It Better



Intro / Main riff



Capo 1st Fret

E|0--0--0--0--0--0-0--0--0--0--0--0---0--0--0---0--0--|
B|7--7--7--7--7--7-7/12-12-10-10-10--10-10-10--10-10--|
G|7--7--7--7--7--7-7/11-11-11-11-11--11-11-11--11-11--|
D|-------------------------12-12-12--12-12-12--12-12--|
A|----------------------------------------------------|
E|----------------------------------------------------|



E|0--0--0---0--0--0---0--0--0--0--0---0--0-0-0-0--0-0-|
B|8--8--8---8--8--8---8--8--8--8--10--10-7-7-7-8--7-7-|
G|9--9--9---9--9--9---9--9--9--9--9---9--7-7-7-7--7-7-|
D|10-10-10--10-10-10--10-10-10-10---------------------|
A|----------------------------------------------------|
E|----------------------------------------------------|



This is played with slight variations throuhout the whole song.

Listen to the recording for the rhythm

Tap to rate this tab
 
# A B C D E F G H I J K L M N O P Q R S T U V W X Y Z