Song name
# A B C D E F G H I J K L M N O P Q R S T U V W X Y Z

Happy Mondays - Kinky Afro tab

Help us improve GuitareTab! Take a short survey!
Written by Shaun Ryder, Paul Ryder, Mark Day, Paul Davies, Gary Whelan

tabbed by:Ali Borrows

rythmn guitar(in the song this is done on keyboard)
the chords used
 G(355333) C(335533) C*(335353)
played in this order throughout the song
G C G C*


main riff
e|------3-------3-----------3----------|
b|-------------------------------------|
g|-5b6r----3-5-----3--------------3-5--|
d|--------------------3h5------5-------|
a|-------------------------------------|
e|-------------------------------------|

This riff is played after the chorus

e|------------------------------------|
b|-5----6-----8-----------------------|
g|-7b9--8b10--10b---------------------|
d|------------------------------------|
a|------------------------------------|
e|------------------------------------|

then back to the main riff

solo
e|12-12-12-12-12-12-12-10-10-10-10-|
b|11-11-11-11-11-11-11-11-11-11-11-|
g|12-12-12-12-12-12-12-12-12-12-12-|
d|---------------------------------|
a|---------------------------------|
e|---------------------------------|

if someone can make a better effort on the solo feel free
Related for Kinky Afro tab