Song name
# A B C D E F G H I J K L M N O P Q R S T U V W X Y Z

Happysad - Noc Jak Kazda Inna tab

happysad - noc jak każda inna

intro:

6.-------------------------------------|
5.-------------------------------------|
4.---5-5------4--4-4-4-4-4-4-----------|
3.---5-5-5-5-4--4-4-4-4-4-4------------|
2.---3-3-5-5-2--2-2-2-2-2-2------------|
1.--------3-3--------------------------|


6.-----------------------------------|
5.-----------------------------------|
4.--7-7-----5--3--3-3-3-3-3-3--------|
3.--7-7-4--5--3--3-3-3-3-3-3---------|
2.--5-5-4--3--1--1-1-1-1-1-1---------|
1.-------2---------------------------|
X3


6.-------------------------------------|
5.-------------------------------------|
4.--5-5------7-7777777-7---------------|
3.--5-5-5-5-7-7777777-7----------------|
2.--3-3-5-5-5-5555555-5----------------|
1.-------3-3---------------------------|


Jak każda inna noc...

6.----------------------------------------------|
5.----------------------------------------------|
4.--5--5-5-5-5-5--3--7-7-7-7-7-7-7--------------|
3.--5--5-5-5-5-5--3--7-7-7-7-7-7-7--------------|
2.--3--3-3-3-3-3--1--5-5-5-5-5-5-5--------------|
1.----------------------------------------------|
Tap to rate this tab
 
# A B C D E F G H I J K L M N O P Q R S T U V W X Y Z