Song name
# A B C D E F G H I J K L M N O P Q R S T U V W X Y Z

Har Mar Superstar - Dui tab

I know the intro's been posted on here, so I'll just tab the main part (i.e. played in 
or at the instrumental)


e|------------------------------------------------------|
B|----------10-------10---------------10----------------|
G|-----9-11------9-11----9--9-9-9-9------11-------------|
D|------------------------------------------------------|
A|------------------------------------------------------|
E|------------------------------------------------------|


e|------------------------------------------------------|
B|----------10-------10-10-10-10-14-12------------------|
G|-----9-11------9--------------------------------------|
D|------------------------------------------------------|
A|------------------------------------------------------|
E|------------------------------------------------------|

A. Taylor

please rate if anyone reads this :)
Tap to rate this tab
# A B C D E F G H I J K L M N O P Q R S T U V W X Y Z