Song name
# A B C D E F G H I J K L M N O P Q R S T U V W X Y Z

Hard-fi - Surburban Knights tab

E           B                  E          F#

----------|----------|       |----------|----------|      
----------|----------|       |----------|----------|
----------|----------|       |----------|----------|
--9-------|--4-------|       |--9-------|--11------|
--9-------|--4-------|       |--9-------|--11------|
--7-------|--2-------| (X6)  |--7-------|--9-------|


 G#           E              

----------|----------|       
----------|----------|     
----------|----------|     
--14------|--9-------|     
--14------|--9-------|    
--12------|--7-------| 
          
Tap to rate this tab
# A B C D E F G H I J K L M N O P Q R S T U V W X Y Z