Song name
# A B C D E F G H I J K L M N O P Q R S T U V W X Y Z

Hard Floor - Heaven Girl tab

-------------------------------------------------------------------------------
			     Heaven Girl (intro) - Hard Floor
-------------------------------------------------------------------------------
Tabbed by:Collin Gordon
Email:Hardfloor15@yahoo.com

Tuning:Standard

e|--10-----10------10------10--------10--------10--------10--------10-------|
B|------8------8-------8--------8---------7---------7---------7----------7--|
G|--------------------------------------------------------------------------|
D|--------------------------------------------------------------------------|
A|--------------------------------------------------------------------------|
E|--------------------------------------------------------------------------|

e|------7--------7--------7--------7---------5-------5--------5--------5---------------|
B|--5-------5--------5--------5---------3--------3-------3---------3-------------------|
G|-------------------------------------------------------------------------------------|
D|-------------------------------------------------------------------------------------|
A|-------------------------------------------------------------------------------------|
E|-------------------------------------------------------------------------------------|

e|-----3------3-----3----3--------------7-------7-----7-----7-------8--------------------|
B|--3-----3------3----3------------/7-------7-------7----7------8------------------------|
G|---------------------------------------------------------------------------------------|
D|---------------------------------------------------------------------------------------|
A|---------------------------------------------------------------------------------------|
E|---------------------------------------------------------------------------------------|

e|------8-------8--------8----10~----------------------------------------------------|
B|--8-------8-------8---------10~----------------------------------------------------|
G|-----------------------------------------------------------------------------------|
D|-----------------------------------------------------------------------------------|
A|-----------------------------------------------------------------------------------|
E|-----------------------------------------------------------------------------------|
Do these 4 bars above 2 times
Tap to rate this tab
# A B C D E F G H I J K L M N O P Q R S T U V W X Y Z