Song name
# A B C D E F G H I J K L M N O P Q R S T U V W X Y Z

Hard-ons - Baka tab

Help us improve GuitareTab! Take a short survey!
Hard ons - Baka

Tabbed by:Dannnte

Very easy song, i think its right but i dont know. its my first tab

Vers:

e|-------------3---2-------------------------| X28
B|-3-5-3-5-3-5---3---3-----------------------|
G|-------------------------------------------|
D|-------------------------------------------|
A|-------------------------------------------|
E|-------------------------------------------|

Chorus:

e|----------------------------------------------------| X4
B|----------------------------------------------------|
G|-777777777-1010-5555555555-88-----------------------|
D|-777777777-1010-5555555555-88-55555555555555555-----|
A|-555555555-8-8--3333333333-66-55555555555555555-----|
E|------------------------------33333333333333333-----|

Vers:

e|-------------3---2-------------------------| X28
B|-3-5-3-5-3-5---3---3-----------------------|
G|-------------------------------------------|
D|-------------------------------------------|
A|-------------------------------------------|
E|-------------------------------------------|

Chorus:

e|----------------------------------------------------| X4
B|----------------------------------------------------|
G|-777777777-1010-5555555555-88-----------------------|
D|-777777777-1010-5555555555-88-55555555555555555-----|
A|-555555555-8-8--3333333333-66-55555555555555555-----|
E|------------------------------33333333333333333-----|
Related for Baka tab