Song name
# A B C D E F G H I J K L M N O P Q R S T U V W X Y Z

Hard-ons - Surfin On My Face tab

Artist - Hard-Ons
Song - Surfin' On My Face

tabbed by shanE
email - random.hero___@hotmail.com

Surfin'on My Face


Verse
|-------------------|
|-------------------|
|-----11-9--11------|
|--9--11-9--11------|
|--9--9--7--9-------|
|--7----------------|

Chorus
|-------------------|
|-------------------|
|-----11-9--11------|
|--9--11-9--11------|
|--9--9--7--9-------|
|--7----------------|
Tap to rate this tab
# A B C D E F G H I J K L M N O P Q R S T U V W X Y Z