Song name
# A B C D E F G H I J K L M N O P Q R S T U V W X Y Z

Hard-ons - Bye Bye Girl tab

Artist - Hard-Ons
Song - Bye Bye Girl

tabbed by shanE
email - random.hero___@hotmail.com

Bye Bye Girl

|-----------|
|-----------|
|----4--6---|
|-6--4--6---|
|-6--2--4---|
|-4---------|

|------------|
|------------|
|------9-----|
|--11--9--9--|
|--11--7--9--|
|--9------7--|

|-----------|
|-----------|
|-----6--8--|
|--8--6--8--|
|--8--4--6--|
|--6--------|

|------------|
|------------|
|------11----|
|---13-11-11-|
|---13-9--11-|
|---11----9--|
Tap to rate this tab
# A B C D E F G H I J K L M N O P Q R S T U V W X Y Z