Guitaretab - guitar tabs
Song name
# A B C D E F G H I J K L M N O P Q R S T U V W X Y Z

Hard-ons - Girl In The Sweater tab

Artist - Hard-Ons
Song - Girl In The Sweater

tabbed by shanE
email - random.hero___@hotmail.com

Girl In The Sweater


Verse/Chorus
|-------------------------------------------|
|-------------------------------------------|
|--9---------------5-----5-----5-7----------|
|--9--7--9------5--5--5--5--5--5-7----------|
|--7--7--9------5--3--5--3--5--3-5----------|
|-----5--7------3-----3-----3---------------|
[ Tab from: http://www.guitaretab.com/h/hard-ons/93829.html ]
Bridge
|---------------------------------7----7-|
|-----------------------------11b---11b--|
|--9---------9--8--6---------------------|
|--9--7--9---9--8--6---7--9--------------|
|--7--7--9---7--6--4---7--9--------------|
|-----5--7-------------5--7--------------|

Ending
|--------------------------------------|
|--------------------------------------|
|--9--------9--------------------------|
|--9--7--9--9--------------------------|
|--7--7--9--7--------------------------|
|-----5--7-----------------------------|
Related for Girl In The Sweater tab
×
Best way to learn
"Girl In The Sweater"