Song name
# A B C D E F G H I J K L M N O P Q R S T U V W X Y Z

Hard-ons - I Heard Her Call My Name tab

Help us improve GuitareTab! Take a short survey!
Artist - Hard-Ons
Song - I Heard Her Call My Name

tabbed by shanE
email - random.hero___@hotmail.com

I Heard Her Call My Name

|--------------------------------------|
|--------------------------------------|
|--9---5---7---------------------------|
|--9---5---7---------------------------|
|--7---3---5---------------------------|
|--------------------------------------|


|--------------------------------------|
|--------------------------------------|
|---9-7-9-7-9-12-14--------------------|
|---9-7-9-7-9-12-14--------------------|
|---7-5-7-5-7-10-12--------------------|
|--------------------------------------|


|--------------------------------------|
|--------------------------------------|
|--5---7---7b--5-----------------------|
|--5---7-------------------------------|
|--3---5-------------------------------|
|--------------------------------------|
Related for I Heard Her Call My Name tab