Song name
# A B C D E F G H I J K L M N O P Q R S T U V W X Y Z

Hard-ons - Ferdis Song tab

Help us improve GuitareTab! Take a short survey!
Artist - Hard-Ons
Song - Ferdi's Song

tabbed by shanE
email - random.hero___@hotmail.com

Ferdi's Song

|---5------------------|
|---7---7------7-------|
|---7------7------7----|
|---7----------------7-|
|---5------------------|
|----------------------|

|-----------------|
|-----------------|
|---7--5h7--5h7-7-|
|---7-----------7-|
|---5-----------5-|
|-----------------|

|-----------------|
|-----------------|
|---7--5h7--5h7--5|
|---7------------5|
|---5------------3|
|-----------------|


|----------------------|
|----------------------|
|---7--5h7--5h7-9-7-9-7|
|---7-----------9-7-9-7|
|---5-----------7-5-7-5|
|----------------------|
Related for Ferdis Song tab