Song name
# A B C D E F G H I J K L M N O P Q R S T U V W X Y Z

Hard-ons - Suck N Swallow tab

Artist - Hard-Ons
Song - Suck 'n' Swallow
tabbed by shanE
email - random.hero___@hotmail.com

Suck'n'swallow

|-------------------------------------------|
|-------------------------------------------|
|-------------------------------------------|
|-------------------------------------------|
|---------------------7~-FEEDBACK---------7-|
|--0~----PICKSLIDE-0--------------0--0-0----|

|-------------------------------------------|
|-------------------------------------------|
|-------------------------------------------|
|----------------x-9-9-x-9-9----------------|
|----------------x-9-9-x-9-9----------------|
|---7-5-7-5-7-5--x-7-7-x-7-7---7-5-7-5-7-5--|
|---0-0-0-0-0-0----------------0-0-0-0-0-0--|
                    .    .

|-------------------------------------------|
|-------------------------------------------|
|-------------------------------------------|
|-x-9-9-x-9-9-------------------------------|
|-x-9-9-x-9-9---7-7-7-7-7-------------------|
|-x-7-7-x-7-7---5-5-5-5-5-------------------|
|-------------------------------------------|
  .    .
Tap to rate this tab
# A B C D E F G H I J K L M N O P Q R S T U V W X Y Z