Song name
# A B C D E F G H I J K L M N O P Q R S T U V W X Y Z

Hard-ons - Just Being With You tab

Artist - Hard-Ons
Song - Just Being With You

tabbed by shanE
email - random.hero___@hotmail.com

Just Being With You

|--------------|
|--------------|
|--------------|
|--9---------7-|
|--9--7--9---7-|
|--7--7--9---5-|
|-----5--7-----|


|---------------------------------|
|---------------------------------|
|---------------------------------|
|---------------------------------|
|----7---7---7--7---4--4--2--2----|
|----7---7---7--7---4--4--2--2----|
|---5---5---4---4--2--2--0--0-----|
Tap to rate this tab
# A B C D E F G H I J K L M N O P Q R S T U V W X Y Z