Guitaretab - guitar tabs
Song name
# A B C D E F G H I J K L M N O P Q R S T U V W X Y Z

Hard-ons - Ill Get Thrush Or Something tab

Artist - Hard-Ons
Song - I'll Get Thrush Or Something

tabbed by shanE
email - random.hero___@hotmail.com

|------------------------|
|------------------------|
|-----------------7-7----|
|--9-9--7-7--5-5--7-7----|
|--9-9--7-7--5-5--5-5----|
|--7-7--5-5--3-3---------|

|------------------------|
|------------------------|
|--------11-9-9h11-------|
|-9-9-12-----------9-----|
|------------------------|
|------------------------|

|------------------------|
|------------------------|
|------------------------|
|-9-9-9h11-7-7-7h9-5-----|
|------------------------|
|------------------------|

|------------------------|
|------------------------|
|--------11-9-9h11-------|
|-9-9-12-----------9-----|
|------------------------|
|------------------------|

|---------------------|
|---------------------|
|---------------------|
|-9-9-9-7-7-7-5-5-5---|
|---------------------|
|---------------------|
[ Tab from: http://www.guitaretab.com/h/hard-ons/94361.html ]
|------------------------|
|------------------------|
|-----------------7-7----|
|--9-9--7-7--5-5--7-7----|
|--9-9--7-7--5-5--5-5----|
|--7-7--5-5--3-3---------|


|------------------------|
|------------------------|
|------------------------|
|------------------------|
|------------------------|
|--7~--------------------|

pause

|------------------------|
|------------------------|
|------------------------|
|------------------------|
|--9-9-9-9-9-9-9-9-9-9-9-|
|--7-7-7-7-7-7-7-7-7-7-7-|
...........pm.............


|------------------------|
|------------------------|
|------------------------|
|------------------------|
|--2-2-2-2-2-2-5-5-5-5-5-|
|--0-0-0-0-0-0-3-3-3-3-3-|
...........pm.............


|------------------------|
|------------------------|
|-----------------7-7----|
|--9-9--7-7--5-5--7-7----|
|--9-9--7-7--5-5--5-5----|
|--7-7--5-5--3-3---------|

|------------------------|
|------------------------|
|--------11-9-9h11-------|
|-9-9-12-----------9-----|
|------------------------|
|------------------------|


|---------|
|---------|
|---------|
|--9------|
|--9------|
|--7------|
Related for Ill Get Thrush Or Something tab
Advertisement will be closed in 10 seconds