Song name
# A B C D E F G H I J K L M N O P Q R S T U V W X Y Z

Hard-ons - Im Hurt Im In Pain tab

Artist: Hard-Ons
Song: I'm Hurt, I'm in Pain

tabbed by shanE
email - random.hero___@hotmail.com

|------------------------------------|
|------------------------------------|
|--------------------------5---------|
|--5-------4-------2-------5---------|
|--5-------5-------2-------3---------|
|--3-------2-------0-----------------|

|------------------------------------|
|------------------------------------|
|--------------------------5-5-5-5---|
|--5-5-5-5-4-4-4-4-2-2-2-2-5-5-5-5---|
|--5-5-5-5-5-5-5-5-2-2-2-2-3-3-3-3---|
|--3-3-3-3-2-2-2-2-0-0-0-0-----------|

|------------------------------------|
|------------------------------------|
|----------7-7-7-7-9-9-9-9-5-5-5-5---|
|--5-5-5-5-7-7-7-7-9-9-9-9-5-5-5-5---|
|--5-5-5-5-5-5-5-5-7-7-7-7-3-3-3-3---|
|--3-3-3-3---------------------------|

|------------------|
|-----------5------|
|-7-5-7-5-7---7-5--|
|------------------|
|------------------|
|------------------|
.......pm... .......

little pause
comes back in with

|-------|
|-------|
|-5-5---|
|-5-5---|
|-3-3---|
|-------|

|------------------------------------|
|------------------------------------|
|--------------------------5-5-5-5---|
|--5-5-5-5-4-4-4-4-2-2-2-2-5-5-5-5---|
|--5-5-5-5-5-5-5-5-2-2-2-2-3-3-3-3---|
|--3-3-3-3-2-2-2-2-0-0-0-0-----------|

|------------------------------------|
|------------------------------------|
|----------7-7-7-7-9-9-9-9-5-5-5-5---|
|--5-5-5-5-7-7-7-7-9-9-9-9-5-5-5-5---|
|--5-5-5-5-5-5-5-5-7-7-7-7-3-3-3-3---|
|--3-3-3-3---------------------------|

|------------------|
|-----------5------|
|-7-5-7-5-7---7-5--|
|------------------|
|------------------|
|------------------|
.......pm... .......


|------|
|------|
|------|
|-5----|
|-5----|
|-3----|
Tap to rate this tab
# A B C D E F G H I J K L M N O P Q R S T U V W X Y Z