Song name
# A B C D E F G H I J K L M N O P Q R S T U V W X Y Z

Hard-ons - Knowing My Luck tab

Help us improve GuitareTab! Take a short survey!
Artist - Hard-Ons
Song - Knowing My Luck

tabbed by shanE
email - random.hero___@hotmail.com

|-----------------|
|-----------------|
|------7-7--5-5---|
|--5-5-7-7--5-5---|
|--5-5-5-5--3-3---|
|--3-3------------|

|----------------------|
|----------------------|
|----------------5-5---|
|--5-5-5-5--2-2--5-5---|
|--5-5-5-5--2-2--3-3---|
|--3-3-3-3--0-0--------|
..........pm............

|-----------------|
|-----------------|
|------7-7--5-5---|
|--5-5-7-7--5-5---|
|--5-5-5-5--3-3---|
|--3-3------------|

|----------------------|
|----------------------|
|----------------5-5---|
|--5-5-5-5--2-2--5-5---|
|--5-5-5-5--2-2--3-3---|
|--3-3-3-3--0-0--------|
..........pm............

|-----|
|-----|
|-----|
|--5--|
|--5--|
|--3--|
Related for Knowing My Luck tab