Song name
# A B C D E F G H I J K L M N O P Q R S T U V W X Y Z

Hard-ons - Crack tab

Artist - Hard-Ons
Song - Crack

tabbed by shanE
email - random.hero___@hotmail.com

|---------------------|
|---------------------|
|-----------5-5-5-5---|
|--5-5-5-5--5-5-5-5---|
|--5-5-5-5--3-3-3-3---|
|--3-3-3-3------------|

|------------|
|------------|
|-5-4-2-2----|
|-5-4-2-2----|
|-3-2-0-0----|
|------------|

|---------------------|
|---------------------|
|-----------5-5-5-5---|
|--5-5-5-5--5-5-5-5---|
|--5-5-5-5--3-3-3-3---|
|--3-3-3-3------------|

|------------|
|------------|
|-5-4-2-2----|
|-5-4-2-2----|
|-3-2-0-0----|
|------------|

|---------------------|
|---------------------|
|-----------5-5-5-5---|
|--5-5-5-5--5-5-5-5---|
|--5-5-5-5--3-3-3-3---|
|--3-3-3-3------------|

|------------|
|------------|
|-5-4-2-2----|
|-5-4-2-2----|
|-3-2-0-0----|
|------------|

|-----|
|-----|
|-----|
|--5--|
|--5--|
|--3--|
Tap to rate this tab
 
# A B C D E F G H I J K L M N O P Q R S T U V W X Y Z