Song name
# A B C D E F G H I J K L M N O P Q R S T U V W X Y Z

Hard-ons - Bubble Bath tab

Artist - Hard-Ons
Song - Bubble Bath

tabbed by shanE
email - random.hero___@hotmail.com 

|---------------------------|
|---------------------------|
|---------------------------|
|-7-7-7-10-10-10-5-5-5-3-3-3|
|-7-7-7-10-10-10-5-5-5-3-3-3|
|-5-5-5--8--8--8-3-3-3-1-1-1|

|---------------------------|
|---------------------------|
|---------------------------|
|---------------------------|
|--7-7-7-7-7-7-7-7-7-7-7-7--|
|--5-5-5-5-5-5-5-5-5-5-5-5--|
...........pm...............

|--------------------|
|--------------------|
|--------------------|
|-7--5--5-/-7--9-----|
|-5--3--3-/-5--7-7---|
|----------------5---|

|---------------------------|
|---------------------------|
|---------------------------|
|-6-7--9-9-11-12-12-13-1----|
|-4-5--7-7--9-10-10-11-12---|
|---------------------------|

|---------------------------|
|---------------------------|
|---------------------------|
|--14-14-14-14-14-14-14-14--|
|--12-12-12-12-12-12-12-12--|
|---------------------------|
...........pm................

Or

|---------------------------|
|---------------------------|
|---------------------------|
|---------------------------|
|-7-7-7-7-7-7-7-7-7-7-7-7-7-|
|-5-5-5-5-5-5-5-5-5-5-5-5-5-|
...........pm................

Tap to rate this tab
 
# A B C D E F G H I J K L M N O P Q R S T U V W X Y Z