Song name
# A B C D E F G H I J K L M N O P Q R S T U V W X Y Z

Hard-ons - Poorest Kid On The Block tab

Artist - Hard-Ons
Song - Poorest Kid On The Block

tabbed by shanE
email - random.hero___@hotmail.com

|------------------------|
|------------------------|
|------------------------|
|-10-10-10-6-6-6--3-3-3--|
|-10-10-10-6-6-6--3-3-3--|
|-8--8--8--4-4-4--1-1-1--|

|----------------------|
|----------------------|
|--------------8-------|
|10--6--8--10--8--8----|
|10--6--8--10--6--8----|
|-8--4--6---8-----6----|

|-----------------------|
|-----------------------|
|-----------------------|
|--------8-10-10-10po8--|
|-8h10-10---------------|
|-----------------------|

|----------------------|
|----------------------|
|----------------------|
|-10po8----------10po8-|
|-------8-8-8h10-------|
|----------------------|

|------------------------|
|------------------------|
|------------------------|
|-10-10-10-6-6-6--3-3-3--|
|-10-10-10-6-6-6--3-3-3--|
|-8--8--8--4-4-4--1-1-1--|

|----------------------|
|----------------------|
|----------------------|
|-10 10 8-8------------|
|-----------10-10--8-8-|
|----------------------|

|----------------------|
|----------------------|
|----------------------|
|-10 10 8-8-10-10--8-8-|
|----------------------|
|----------------------|
Tap to rate this tab
# A B C D E F G H I J K L M N O P Q R S T U V W X Y Z