Song name
# A B C D E F G H I J K L M N O P Q R S T U V W X Y Z

Hard-ons - But Officer I Was Just Doing My Job tab

Artist - Hard-Ons
Song - But Officer I Was Just Doing My Job

tabbed by shanE
email - random.hero___@hotmail.com

|------------------------|
|------------------------|
|-7p5h7p5h7p5-9p7h9p7h9p7|
|------------------------|
|------------------------|
|------------------------|

|------------------------|
|------------------------|
|-4p3h4p3h4p3-4p2h4p2h4p2|
|------------------------|
|------------------------|
|------------------------|

|------------------------|
|------------------------|
|------------------------|
|-------5-5-5-7-7-7-5-5-5|
|-5-5-5-3-3-3-5-5-5-3-3-3|
|-3-3-3------------------|

|------------------------|
|------------------------|
|-7p5h7p5h7p5-9p7h9p7h9p7|
|------------------------|
|------------------------|
|------------------------|

|------------------------|
|------------------------|
|-4p3h4p3h4p3-4p2h4p2h4p2|
|------------------------|
|------------------------|
|------------------------|

|------------------------|
|------------------------|
|------------------------|
|-------5-5-5-7-7-7-5-5-5|
|-5-5-5-3-3-3-5-5-5-3-3-3|
|-3-3-3------------------|
Tap to rate this tab
# A B C D E F G H I J K L M N O P Q R S T U V W X Y Z