Guitaretab - guitar tabs
Song name
# A B C D E F G H I J K L M N O P Q R S T U V W X Y Z

Hardcore Superstar - Sorry For The Shape Im In tab

HARDCORE SUPERSTAR
Sorry For the Shape I'm in In
Transcribed By babylonbomb/Rino-High Voltage

Intro (repeat 11 times)
--------------------|
--------------------|
--------------------|
-2-2--4\3/4\3-----2-|
-2-2--2\1/3\1-0---2-|
-0-0------------3-0-|
                                                                              
 
End Intro
-------------|
-------------|
--4--5-------|
--4--5-------|
--2--3-------|
-------3\2-0-|
[ Tab from: http://www.guitaretab.com/h/hardcore-superstar/101014.html ]
Verse (repeat 8 times)
------------------| 
------------------|
---7-9--9---------|
---7-9--9--8-7-5--|
-----------8-7-5--|
-0----------------|
                                                                              
Pre-Chorus (3 times)		End Pre-chorus
---------------|		--------------------------------|
---------------|		--------------------------------|
-2--4--5--9--7-|		-2--4--5--9---------------------|
-2--4--5--9--7-|		-2--4--5--9------4\3/4\3-----2--|
-0--2--3--7--5-|		-0--2--3--7------2\1/2\1-0---2--|
---------------|		-------------0-0-----------3-0--|
                                                                              
Chorus (repeat 3 times) End Chorus (repeat 2 times)
-----------|		------------|
-----------|		------------|
-----5--7--|		-5-5---9-7--|
--2--5--7--|		-5-5---9-7--|
--2--3--5--|		-3-3--------|
--0--------|		------------|

Intro (8 times)
End Intro
Verse (8 times)
Pre-Chorus (3 times)
End Pre-Chorus
Chorus (3 times)
End Chorus (2 times)

Solo
(i donít figure out it)

Rhythm for Solo:
Intro (4 times)
Pre-Chorus (4 times)

Conclusion
--------------------------|
--------------------------|
-2--4--5--9---------------|
-2--4--5--9----4-3-----2--|
-0--2--3--7----2-1-----2--|
-------------------3-2-0--|

(end solo)

Chorus (3 times)
End Chorus (1 time) 
Chorus (3 times)
End Chorus (2 times)                                                                
Intro (8 times)
End Intro (Conclusion of the song) 

check out the song for timing
Related for Sorry For The Shape Im In tab