Song name
# A B C D E F G H I J K L M N O P Q R S T U V W X Y Z

Hardcore Superstar - This Is For The Mentally Damaged tab

HARDCORE SUPERSTAR
This Is For The Mentally Damaged
Transcribed By babylonbomb/Rino-High Voltage

Intro
----------------------|--------------------|-----------------------|
----------------------|--------------------|-----------------------|
----------------------|--------------------|-----------------------|
----------------------|--------------------|-----------------------|
----------------------|--------------------|-----------------------|
-2-0-2-0-5--0-2-0-5-0-|-2-0-2-0-5--0-2-0-5-|-2-0-2-0-5--0-2-0-5-0--|
                                                                  -|
-------------------------------------------------------------------|
-------------------------------------------------------------------|
-------------------------------------------------------------------|
-------------------------------------------------------------------|
-2-0-2-5-0-2-0-2-5-------------------------------------------------|

Verse
-----------------|
-----------------|
-----------------|
-4/7\4---2-----2-|
-4/7\4---2-4-4-2-|
-2/5\2---0-0-0-0-|

Check out the song for rhythm and timing.
Tap to rate this tab
# A B C D E F G H I J K L M N O P Q R S T U V W X Y Z