Song name
# A B C D E F G H I J K L M N O P Q R S T U V W X Y Z

Hardcore Superstar - Hateful tab

Hey
In this song you don't need to tune down. It's just the ordinary tuning.

e|---------------------------------------|
B|---------------------------------------|
G|---------------------------------------|            X1
D|----6----6----6----6-------------------|
A|----6----6----6----6-------------------|
E|----4----4----4----4-------------------|

e|-----------------------------------------------------|
B|-----------------------------------------------------|
G|----4---------7--6-----4---------7--6----------------|               X1
D|----4----6----7--6-----4----6----7--6----------------|
A|----2----6----5--4-----2----6----5--4----------------|
E|---------4------------------4------------------------|

e|------------------------------------------------------|
B|------------------------------------------------------|                 x1
G|--------7-7-7-7--6-6-6-6--4---------------------------|
D|--------7-7-7-7--6-6-6-6--4--6-6-6-6------------------|
A|--------5-5-5-5--4-4-4-4--2--6-6-6-6------------------|
E|-----------------------------4-4-4-4------------------|

e|------------------------------------------------------|
B|------------------------------------------------------|
G|------------------------------------------------------|                X2
D|------------------------------------------------------|
A|--2------5--4---2---2---------------------------------|
E|-----4------------4---4--2--4-------------------------|


Any questions or problems email me at Aikmackan@hotmail.com
Tap to rate this tab
# A B C D E F G H I J K L M N O P Q R S T U V W X Y Z