Song name
# A B C D E F G H I J K L M N O P Q R S T U V W X Y Z

Hardcore Superstar - Shame tab

Help us improve GuitareTab! Take a short survey!
Hardcore Superstar - Shame

Intro


e |---------------------------------------------------------------|
B |---------------------------------------------------------------|
G |------6-5----------------------------------6-------------------|
D |----------8----------4-4h6-4---4---------6------8-6--10-8-6-8--|
A |------------8\4--4-6---------6---4~--6/8-----------------------|
E |--6-6----------------------------------------4-----------------|


  |-----------------------------------------------------------|
  |-----------------------------------------------------------|
  |--6-5----------------------------------6-------------------|
  |------8----------4-4h6-4---4---------6---------------------|
  |--------8\4--4-6---------6---4~--6/8-----------------------|
  |-----------------------------------------4-----------------|


This is the way I think the intro is played, though I'm new at this, please bear with me 
I've made any mistakes, since this is my first tab.
If you find anything wrong, please email me.

//SAYN
Related for Shame tab