Hardcore Superstar - Last Call For Alcohol tab

'LAST CALL FOR ALCOHOL' by Hardcore Superstar
Album: Split Your Lip
Submitted by: Victor (vctrklndr[a]hotmail.com)

Tuning: 1 step down (D G C F A D)

        6  5  4  3  2  1
        E  A  D  G  B  e
Chords:
E5:     x  7  9  9  x  x
C5:     x  3  5  5  x  x
G5:     3  5  5  x  x  x
D5:     x  5  7  7  x  x

Listen to the song for correct timing and rhythm. 

(Intro)

  Riff 1
e|---------------------------------------------||
B|---------------------------------------------||
G|-9-9--9-9--7-9-12-11-5-5-5-5-5-5-7-7-7-7-7-7-||
D|-9-9--9-9--7-9-12-11-5-5-5-5-5-5-7-7-7-7-7-7-||
A|-7-7--7-7--5-7-10-9--3-3-3-3-3-3-5-5-5-5-5-5-||
E|---------------------------------------------||

  Riff 2
e|-----------------------------------------||
B|-----------------------------------------||
G|-9-9--9-9--7-9-12-11-----------9-7-5-7-7-||
D|-9-9--9-9--7-9-12-11-5-5--5-5--9-7-5-7-7-||
A|-7-7--7-7--5-7-10-9--5-5--5-5--7-5-3\5-5-||
E|---------------------3-3--3-3------------||

  Riff 3
e|------------------------------------------------||
B|------------------------------------------------||
G|-9-9--9-9--7-9-12-11-5-5-5-5-5-5-7-7-7-7-7-7-\9-||
D|-9-9--9-9--7-9-12-11-5-5-5-5-5-5-7-7-7-7-7-7-\9-||
A|-7-7--7-7--5-7-10-9--3-3-3-3-3-3-5-5-5-5-5-5-\7-||
E|------------------------------------------------||


(Verse)
   P.M. -----------------------|
e|----------------------------------------------------------||
B|----------------------------------------------------------||
G|--------------------------------9-12-7-5-5-5-5-7-7-7--7\9-||
D|-2-2-2-2-2-2-2-2-2-2-2-2-2-2-2--9-12-7-5-5-5-5-7-7-7--7\9-||
A|-2-2-2-2-2-2-2-2-2-2-2-2-2-2-2--7-10-5-3-3-3-3-5-5-5--5\7-||
E|-0-0-0-0-0-0-0-0-0-0-0-0-0-0-0----------------------------||
   I'm on my way, I need it know          (last call...)

   P.M. -----------------------|
e|----------------------------------------------------------||
B|----------------------------------------------------------||
G|--------------------------------9-12-7-5-5-5-5-7-7-7--7\9-||
D|-2-2-2-2-2-2-2-2-2-2-2-2-2-2-2--9-12-7-5-5-5-5-7-7-7--7\9-||
A|-2-2-2-2-2-2-2-2-2-2-2-2-2-2-2--7-10-5-3-3-3-3-5-5-5--5\7-||
E|-0-0-0-0-0-0-0-0-0-0-0-0-0-0-0----------------------------||
   My invitation, my only sin           (last call...)

   P.M. -----------------------|
e|---------------------------------------------------------------------||
B|---------------------------------------------------------------------||
G|--------------------------------9-12-7-5-5-5-5-7-7-7---5-5-5-5-5-7-7-||
D|-2-2-2-2-2-2-2-2-2-2-2-2-2-2-2--9-12-7-5-5-5-5-7-7-7---5-5-5-5-5-7-7-||
A|-2-2-2-2-2-2-2-2-2-2-2-2-2-2-2--7-10-5-3-3-3-3-5-5-5---3-3-3-3-3-5-5-||
E|-0-0-0-0-0-0-0-0-0-0-0-0-0-0-0---------------------------------------||
   I don't wanna crash...         I      never seem to... at all



E5          C5          G5
Party ain't over 'til I say so
      D5        E5
and I feel good tonight
                 C5            G5
I'm just getting started and I hate you
  D5                 E5
I just might start a fight
     C5              G5
Need nobody's guilty hands
       D5         C5
taking care of me tonight
             D5
I'll be just fine


(Riff 3)
(Verse)
(Chorus)
(Bridge)
(Chorus)
(Riff 1)
Tap to rate this tab
 
# A B C D E F G H I J K L M N O P Q R S T U V W X Y Z