Song name
# A B C D E F G H I J K L M N O P Q R S T U V W X Y Z

Hardcore Superstar - Moonshine tab

Artist:Hardcore Superstar
Song: Moonshine
Album: Split Your Lip

www.hardcoresuperstar.com






Im not sayin' it's 100 percent right, but  it will help you understand the standards .


INTRO:
if you wanna have the sound they have on the album, put on sum dist,and turn down the 
volume a little bit on your guitar.

   0.9   "Don't talk About..."

               G G G G  D D D D  G G G G  A A

|---------------------------------------------| 0.18
|---------------------------------------------|
|---------------------------------------------|
|-----------------------5-5-5-5---------------|
|--------------5-5-5-5--3-3-3-3--5-5-5-5--7-7~|
|-////// 12----3-3-3-3-----------3-3-3-3--5-5~|







then i think he turns up the volume to a heavier dist,and plays kinda same,and also 
remember to listen to the rhythm yourself.





 G G G G  D D D A   DDDDDDDD EEEEEEEE  GGGGGGGGGGGGGGGG AAAAAAAAAAAAAAA
|-----------------------------------------------------------------------|
|-----------------------------------------------------------------------|
|-------------------77777777-99999999--1212121212121212-1414141414141414|
|----------5-5-5\7------------------------------------------------------|
|-5-5-5-5--3-3-3\5--55555555-77777777--1010101010101010-1212121212121212|
|-3-3-3-3---------------------------------------------------------------|

  A AAA                   G G  D  A  G G D A  G G D  D DD
|-----------------------------------------------------------|
|-----------------------------------------------------------|
|--------------------------------7---------7----------------|
|-7-7777--quick paus then------5---------5--------7-5-55----|
|-5-5555-------------------5-5-3-5---5-5-3-5--5-5-5-3-33----|
|--------------------------3-3-------3-3------3-3-----------|



Im working on the song, i promise i will add the rest very soon :)
Tap to rate this tab
 
# A B C D E F G H I J K L M N O P Q R S T U V W X Y Z