Song name
# A B C D E F G H I J K L M N O P Q R S T U V W X Y Z

Hardcore Superstar - We Dont Celebrate Sundays tab

Key:
x  = Mute String
PM = Palm Mute
/  = Slide Upwards
\  = Slide Downwards
b  = Bend Note
fb = full bend
h  = Hammer On
p  = Pull Off
~  = Let Note Ring
ps = Pick Scrape
V  = Vebrato
PH = Pinch harmonic


e-----------------------------------------------------------------------|
B-----------------------------------------------------------------------|
G-----------------------------------------------------------------------|
D-----------------------------------------------------------------------|
A-3-3-5-6-8-1----3-3-5-6-8----------------------------------------------|
E-----------------------------------------------------------------------|

Then you just drag your finger on the eBG strings and hit it.

e-6-6fb-6fb-6fb-6-3-----------------------------------------------------|
B-------------------6-6fb-6-8-8PM-8-8-----------------------------------|
G-------------------------------------8-5---5---------------------------|
D-----------------------------------------8---8-5-----5-----------------|
A-------------------------------------------------8-8---8-10------------|
E-----------------------------------------------------------------------|

e-----------------------------------------------------------------------|
B-----------------------------------------------------------------------|
G---------------------------------------------10\-----------------------|
D-----------------------------8-9-10-8-9-10---10\-----------------------|
A---------------8-9-10-8-9-10-----------------8\------------------------|
E-8-8-9-9-10-10---------------------------------------------------------|

e-----------------------------------------------------------------------|
B-----------------------------------------------------------------------|
G-----------------------------------------------------------------------|
D-10-9-8-10-9-8---------------------------------------------------------|
A---------------10-9-8-10-9-8-------------------------------------------|
E-----------------------------10-9-8-10-9-8-8b--------------------------|
Tap to rate this tab
 
# A B C D E F G H I J K L M N O P Q R S T U V W X Y Z