Song name
# A B C D E F G H I J K L M N O P Q R S T U V W X Y Z

Hardcore Superstar - Beat You Down tab

Help us improve GuitareTab! Take a short survey!
--------------------------------------------------------------------------------------------
                                  beat you down
--------------------------------------------------------------------------------------------


intro/verse

e|------------------------------------------------------------------------------------------|
B|------------------------------------------------------------------------------------------|
G|--8---6---4-----------------------4-4-4h6^rp4-4-------------------------------------------|
D|--8---6---4---repeat 3 times --6----------------------------------------------------------|
A|--6---4---2--------------------6----------------------------------------------------------|
E|-------------------------------4----------------------------------------------------------|

verse part II                   "am i really a man......
e|------------------------------------------------------------------------------------------|
B|------------------------------------------------------------------------------------------|
G|--8--6--4-------------------------4-------------------------------------------------------|
D|--8--6--4---repeat 3 times-----6--4--3-----6----------------------------------------------|
A|--6--4--2----------------------6--2--3-----6----------------------------------------------|
E|-------------------------------4-----1-----4----------------------------------------------|

Chorus
e|-------------------------------------------------------------------------------------------|
B|-------------------------------------------------------------------------------------------|
G|--8--6--4----------------------------------------------------------------------------------|
D|--8--6--4----6--8--------------------------------------------------------------------------|
A|--6--4--2----6--8--------------------------------------------------------------------------|
E|-------------4--6--------------------------------------------------------------------------|

thats pretty much the whole song. theres a weird solo'y type bit that is just fucking around on the 
frets, but thats it really
Related for Beat You Down tab