Guitaretab - guitar tabs
Song name
# A B C D E F G H I J K L M N O P Q R S T U V W X Y Z

Hardcore Superstar - We Dont Celebrate Sundays tab

Hardcore Superstar Ė We Donít Celebrate Sundays

(Intro)x2
e-----------------------------------------------------------------------|
B-----------------------------------------------------------------------|
G-----------3-3-3-------------3-3-3-------------------------------------|
D-5-5-5-5-3-1-1-1-3-3---------1-1-1-3-3---------------------------------|
A-3-3-3-3-1-------1-1-6-6-6-6-------1-1---------------------------------|
E---------------------4-4-4-4-------------------------------------------|

(After Intro With The Drums)x2 
e-----------------------------------------------------------------------|
B-----------------------------------------------------------------------|
G-----------3-3-3-------------3-----------------------------------------|
D-5-5-5-5-3-1-1-1-3-3---------1--3--------------------------------------|
A-3-3-3-3-1-------1-1-6-6-6-6----1--------------------------------------|
E---------------------4-4-4-4-------------------------------------------|

(Verse)x3
e-----------------------------------------------------------------------|
B-----------------------------------------------------------------------|
G-----------------------------------------------------------------------|
D-5-5-5-5-5-5-5-5-----------------3-3-3-3-3-3-3-3-3-3-3-3-3-3-3-3-------|
A-3-3-3-3-3-3-3-3-6-6-6-6-6-6-6-6-1-1-1-1-1-1-1-1-1-1-1-1-1-1-1-1-------|
E-----------------4-4-4-4-4-4-4-4---------------------------------------|

(In The End Of The Verse Just Before Chorus)x1
e-----------------------------------------------------------------------|
B-----------------------------------------------------------------------|
G-----------------------------------------------------------------------|
D-5-5-5-5-5-5-5-5-----------------8-7-5-3-8-7-5-3-----------------------|
A-3-3-3-3-3-3-3-3-6-6-6-6-6-6-6-6-6-5-3-1-6-5-3-1-----------------------|
E-----------------4-4-4-4-4-4-4-4---------------------------------------|

(Chorus)
e-----------------------------------------------------------------------|
B-----------------------------------------------------------------------|
G-----------3-3-3---------------3-3-3-------------3---------------------|
D-5-5-5-5-3-1-1-1-3-3-5-5-5-5-3-1-1-1-3-3---------1--3------------------|x1
A-3-3-3-3-1-------1-1-3-3-3-3-1-------1-1-6-6-6-6----1------------------|
E-----------------------------------------4-4-4-4-----------------------|

e-----------------------------------------------------------------------|
B-----------------------------------------------------------------------|
G-----------3-3-3-------------3-----------------------------------------|
D-5-5-5-5-3-1-1-1-3-3---------1--3--------------------------------------|x3
A-3-3-3-3-1-------1-1-6-6-6-6----1--------------------------------------|
E---------------------4-4-4-4-------------------------------------------|
[ Tab from: http://www.guitaretab.com/h/hardcore-superstar/66811.html ]
(Verse)x3
e-----------------------------------------------------------------------|
B-----------------------------------------------------------------------|
G-----------------------------------------------------------------------|
D-5-5-5-5-5-5-5-5-----------------3-3-3-3-3-3-3-3-3-3-3-3-3-3-3-3-------|
A-3-3-3-3-3-3-3-3-6-6-6-6-6-6-6-6-1-1-1-1-1-1-1-1-1-1-1-1-1-1-1-1-------|
E-----------------4-4-4-4-4-4-4-4---------------------------------------|



(In The End Of The Verse Just Before Chorus)x1
e-----------------------------------------------------------------------|
B-----------------------------------------------------------------------|
G-----------------------------------------------------------------------|
D-5-5-5-5-5-5-5-5-----------------8-7-5-3-8-7-5-3-----------------------|
A-3-3-3-3-3-3-3-3-6-6-6-6-6-6-6-6-6-5-3-1-6-5-3-1-----------------------|
E-----------------4-4-4-4-4-4-4-4---------------------------------------|

(Chorus)
e-----------------------------------------------------------------------|
B-----------------------------------------------------------------------|
G-----------3-3-3---------------3-3-3-------------3---------------------|
D-5-5-5-5-3-1-1-1-3-3-5-5-5-5-3-1-1-1-3-3---------1--3------------------|x1
A-3-3-3-3-1-------1-1-3-3-3-3-1-------1-1-6-6-6-6----1------------------|
E-----------------------------------------4-4-4-4-----------------------|

e-----------------------------------------------------------------------|
B-----------------------------------------------------------------------|
G-----------3-3-3-------------3-----------------------------------------|
D-5-5-5-5-3-1-1-1-3-3---------1--3--------------------------------------|x3
A-3-3-3-3-1-------1-1-6-6-6-6----1--------------------------------------|
E---------------------4-4-4-4-------------------------------------------|

Solo Canít Find It Out L

(Chorus)
e-----------------------------------------------------------------------|
B-----------------------------------------------------------------------|
G-----------3-3-3---------------3-3-3-------------3---------------------|
D-5-5-5-5-3-1-1-1-3-3-5-5-5-5-3-1-1-1-3-3---------1--3------------------|x1
A-3-3-3-3-1-------1-1-3-3-3-3-1-------1-1-6-6-6-6----1------------------|
E-----------------------------------------4-4-4-4-----------------------|

e-----------------------------------------------------------------------|
B-----------------------------------------------------------------------|
G-----------3-3-3-------------3-----------------------------------------|
D-5-5-5-5-3-1-1-1-3-3---------1--3--------------------------------------|x3
A-3-3-3-3-1-------1-1-6-6-6-6----1--------------------------------------|
E---------------------4-4-4-4-------------------------------------------|


(Verse With Stick)x4
e-----------------------------------------------------------------------|
B-----------------------------------------------------------------------|
G-----------------------------------------------------------------------|
D-5-5-5-5-5-5-5-5-----------------3-3-3-3-3-3-3-3-3-3-3-3-3-3-3-3-------|
A-3-3-3-3-3-3-3-3-6-6-6-6-6-6-6-6-1-1-1-1-1-1-1-1-1-1-1-1-1-1-1-1-------|
E-----------------4-4-4-4-4-4-4-4---------------------------------------|

Solo Canít Find It Out L

The End
Related for We Dont Celebrate Sundays tab