Song name
# A B C D E F G H I J K L M N O P Q R S T U V W X Y Z

Hardline - Rhythm From A Red Car tab

Album: Double Eclipse
Music/lyrics by Schon/Gioeli


e---------------------------------|
B-0-0-0-0-0-0-0-0-0-0-0-0-0-0-0-0-|
G---------------------------------|
D---------------------------------|
A---------------------------------|
E---------------------------------|
(use edge of pick to get the right sound)


e---------------------------------|
B---------------------------------|
G---------------------------------|
D-9-11-11-10-8-8---9-11-11-10-8---|
A-9-11-11-10-8-8---9-11-11-10-8---|
E-7-9--9--8--6-6---7-9--9--8--6---|


Any Comments email: melodic_hard_rock@hotmail.com
Tap to rate this tab
# A B C D E F G H I J K L M N O P Q R S T U V W X Y Z