Song name
# A B C D E F G H I J K L M N O P Q R S T U V W X Y Z

Hardline - Hotcherie tab

INTRO:

E||---------------------|--------------------|----------------------|
B||---------------------|--------------------|----------------------|
G||--7/-----7/------3/--|----------3/--4/----|--4/--4/--5/----------|
D||--7/-----7/--0/--3/--|------0/--3/--5/----|--5/--5/--5/----------|
A||--5/-----5/--0/--5/--|------0/--1/--2/----|--0/--2/--3/---8-----7|
E||--5/-------------6/--|--------------------|----------3/----------|



----------------------|----------------------|----------------------|
----------------------|----------------------|----------------------|
----------7/----------|------7/------3/------|------3/--7/~~~~~~~~~~|
----------7/----------|------7/--0/--3/------|--0/--3/--5/~~~~~~~~~~|
--5/------5/----------|------5/--0/--5/------|--0/--1/--3/~~~~~~~~~~|
------8/--5/----------|--------------6/------|----------3/~~~~~~~~~~|



If you think this is heading in the right direction, I'll finish it
for you.  Just tell Ultimate-Guitar and I'll work it ALL out.

Submitted by:

Steve Smith
Minneapolis, MN

musicmaster4@msn.com
Tap to rate this tab
 
# A B C D E F G H I J K L M N O P Q R S T U V W X Y Z