Song name
# A B C D E F G H I J K L M N O P Q R S T U V W X Y Z

Hardwell - Apollo chords

Highlighted       Show chord diagrams
-------------------------------------------------------------------------------
                APOLLO (Radio Edit)  Hardwell ft. Amba Sheperd
-------------------------------------------------------------------------------
Tabbed by: djsherman
E-mail: sherm.dj@gmail.com

Tuning: EADGBd Capo 2nd fret



Chords

       Em      Cmaj7     G6      Asus
d|-----0---------0-------0-------0-----|
B|-----0---------0-------0-------3-----|
G|-----0---------0-------0-------2-----|
D|-----2---------2-------0-------0-----|
A|-----2---------3-------2-------0-----|
E|-----0---------X-------3-------X-----|



Intro/Prechorus

Em                  Cmaj7
Just one day in the life 

     G6       Asus
So I can understand 

Em                  Cmaj7
Fighting just to survive 

           G6       Asus
But you taught me I can 

Em               Cmaj7
We are the lucky ones 

   G6      Asus
We are, we are 

   Em               Cmaj7
Oh we are the lucky ones



Chorus:

d|------------------------------------------------------------------|
B|-----7-8-----7-8----7-8-10-8-7-8----7-8---------------8-7---------|
G|--7--------7------7---------------7--------7-9--7-7-9-------------|
D|-----------------------------------------9------------------------|
A|------------------------------------------------------------------|
E|------------------------------------------------------------------|
Tap to rate this tab
# A B C D E F G H I J K L M N O P Q R S T U V W X Y Z