Song name
# A B C D E F G H I J K L M N O P Q R S T U V W X Y Z

Harem Scarem - Something To Say tab

Harem Scarem
Something To Say Intro

Transcribed by: TheSixthString

NH - Natural Harmonics
h - hammer-on

PART 1       
|------12NH-----------------------------------12NH------|
|---------12NH------------------------------8------8\---|
|------------11------------------------7h9---------9\---|
|---------------12NH------------2-5/9-------------------|
|--------------------------2h5--------------------------|
|--0------------------0h3-------------------------------|

|------------------------------3-----|2X   
|--8---10-7-8---10-7-7---8---5---4---| 
|----------------------7---7-------4-|
|---------7--------7-----------------|
|--7-9-10---7-9-10---5---5---3---2---|
|------------------------------------|

|-3-3-----5-5------12NH--------------------------------------12NH-|
|-3---3---5---5-----------12NH------------------------------------|
|-5-----5-7-----7-----9NH--------12NH-------------------12NH------|
|-5-------7------------------9NH----------12NH--------------------|
|-3-------5---------------------------9NH-------------------------|
|---------------------------------------------9NH--12NH-----------|


PART 2
|----------------------------------|2x
|----8-------8-------8-------8-----|
|------9-------9-------9-------9---|
|--------9-------9-------9-------9-|
|--7-------7-------7-------6-------|
|----------------------------------|

|------------------------------------------------------------------|
|----8-------7-------7-------5-------5-------3-------5-------7-----|
|------9-------8-------7-------6-------5-------4-------5-------8---|
|--------9-------9-------7-------7-------5-------5-------5-------9-|
|--7-------6-------5-------4-------3-------2-------3-------6-------|
|------------------------------------------------------------------|

|------------------------------------------------------------|
|----8-------7-------7-------5-------5-------3-------2-------|
|------9-------8-------7-------6-------5-------4-------2-----|
|--------9-------9-------7-------7-------5-------5-------2---|
|--7-------6-------5-------4-------3-------2-------0---------|
|----------------------------------------------------------0-|


|-----------------------------14-|------10p7------------11-|
|--12----13p12--10------10-------|--8---------(8)---7------|
|-----12-----------(12)----11----|----7---------(7)---8----|
|--------------------------------|-------------------------|
|--10----10----------------------|--7----------------------|
|-----------------------10-------|------------------7------|


|-----------------------------------7NH--------------------|
|----5-------5-------7----------8-7-7NH-------8p7----------|
|------5-------6-------7----------------7NH--------9-7-----|
|--------5-------7-------7------9-7-------7NH----------7NH-|
|--3-------4-------5-------5/7-----------------------------|
|----------------------------------------------------------|


|------------------------------------------------------------------|
|----8-------7-------7-------5-------5-------3-------5-------7-----|
|------9-------8-------7-------6-------5-------4-------5-------8---|
|--------9-------9-------7-------7-------5-------5-------5-------9-|
|--7-------6-------5-------4-------3-------2-------3-------6-------|
|------------------------------------------------------------------|

|------------------------------------------------------------|
|----8-------7-------7-------5-------5-------3-------2-------|
|------9-------8-------7-------6-------5-------4-------2-----|
|--------9-------9-------7-------7-------5-------5-------2---|
|--7-------6-------5-------4-------3-------2-------0---------|
|----------------------------------------------------------0-|


|-----------------------------14-|------10p7------------11-|
|--12----13p12--10------10-------|--8---------(8)---7------|
|-----12-----------(12)----11----|----7---------(7)---8----|
|--------------------------------|-------------------------|
|--10----10----------------------|--7----------------------|
|-----------------------10-------|------------------7------|


PART 3
|----------------------------------|3x
|----5-------5-------7-------7-----|
|------5-------6-------7-------8---|
|--------5-------7-------7-------9-|
|--3-------4-------5-------6-------|
|----------------------------------|

|-------------------------------------------------------------------------|
|--8------10---------12---------13---------15---------17---------19-------|
|----9-------11---------12---------14---------16---------17---------19----|
|------9--------12---------12---------15---------17---------17---------19-|
|-7------9---------10---------12---------14---------15---------17---------|
|-------------------------------------------------------------------------|


|--15-10---------------------------------------------------------------3---|
|--15-10----8------0h5h7h8---------------------------------------------3---|
|---------------7----------0h4h5h7---------0h2h4h5-------------------------|
|---------0---0--------------------0h4h5h7---------0h2h4h5-----------------|
|----------------------------------------------------------0h2h3h5--0--2---|
|----------------------------------------------------------------------3---|
Tap to rate this tab
# A B C D E F G H I J K L M N O P Q R S T U V W X Y Z