Song name
# A B C D E F G H I J K L M N O P Q R S T U V W X Y Z

Harkonen - Smile Pretty tab

Smile Pretty
Harkonen
http://www.myspace.com/harkonen
Shake Harder Boy

by theorganicboy
hxchaos@hotmail.com


Intro:
e|---------------------------------------------|
b|---------------------------------------------|
g|---------------------------------------------|
d|---------------------------------------------|
a|-------2---------2---------2---------2-------|
d|---3-3---3-0-3-3---3-0-3-3---3-0-3-3---3-0---|

Riff A:
e|---------------------------------------------|
b|---------------------------------------------|
g|---------------------------------------------|
d|-------4---------4---------4---------4-------|
a|---3-3-2-3-0-3-3-2-3-0-3-3-2-3-0-3-3-2-3-0---|
d|---3-3---3-0-3-3---3-0-3-3---3-0-3-3---3-0---|

Riff B:
e|---0-000-0-0--00-0-000-0-0--00---|
b|---0-000-3-4--43-0-000-3-4--43---|
g|---4-444---------4-444-----------|
d|---------------------------------|
a|---------------------------------|
d|---------------------------------|

Riff C:
e|-------------------------------------|
b|-------------------------------------|
g|---6--7-6--7-6--7-6--7-6--7-6--7-6---|
d|---6--7-6--7-6--7-6--7-6--7-6--7-6---|
a|---4--5-4--5-4--5-4--5-4--5-4--5-4---|
d|-------------------------------------|

End on:
e|---------|
b|---------|
g|---------|
d|---0-3---|
a|---0-3---|
d|---0-3---|
Tap to rate this tab
# A B C D E F G H I J K L M N O P Q R S T U V W X Y Z