Song name
# A B C D E F G H I J K L M N O P Q R S T U V W X Y Z

Harkonen - Introducing The Creeker Sneaker tab

Introducing the Creeker Sneaker
Harkonen
Shake Harder Boy

by theorganicboy
hxchaos@hotmail.com


Riff A:
e|-------------------------|
b|-------------------------|
g|-------------------------|
d|-----------6---------6---|
a|---0-0-0h6---0-0-0h6-----|
d|---0-0-------0-0---------|

Riff B:
e|-------------------------------------|
b|-------------------------------------|
g|-------------------------------------|
d|-------------5-5-5-----------5-5-5---|
a|---4-4-4-4-4-3-3-3-3-3-3-3-3-3-3-3---|
d|---4-4-4-4-4-------3-3-3-3-3---------|

Riff C:
e|----------------------------------------|
b|----------------------------------------|
g|----------------------------------------|
d|----------------------------------------|
a|---0-0-xxx--0-0-xxx--0-0-xxx--0-0-xxx---|
d|---0-0-xxx--0-0-xxx--0-0-xxx--0-0-xxx---|

Riff D:
e|----------------------------------------|
b|----------------------------------------|
g|----------------------------------------|
d|----------------------------------------|
a|---0-0------0-0------0-0-------0-0------|
d|---0-0------0-0------0-0-------0-0------|

Riff E:
e|----------------------------------------|
b|----------------------------------------|
g|----------------------------------------|
d|----------------------------------------|
a|---0-0------0-0------0-0------0-0-------|
d|---0-0-333--0-0-333--0-0-333--0-0-333---|
  harmo  ***      ***      ***      ***

Riff F:
e|---------------------------------------------------|
b|---------------------------------------------------|
g|---------------------------------------------------|
d|-------------------------11b-----11b-----11b-------|
a|---0--000--000--000--000-----000-----000-----000---|
d|---0--000--000--000--000-----000-----000-----000---|
Tap to rate this tab
 
# A B C D E F G H I J K L M N O P Q R S T U V W X Y Z