Song name
# A B C D E F G H I J K L M N O P Q R S T U V W X Y Z

Harkonen - Weve Come For Your Daughters tab

We've Come for Your Daughters
Harkonen
Sharke Harder Boy

by theorganicboy
hxchaos@hotmail.com


Main Riff:
e|---------------------------------------------------------|
b|---------------------------------------------------------|
g|---10-9-----7---10-9-----7---10-9-----7---10-9-----7-----|
d|---10-9-----7---10-9-----7---10-9-----7---10-9-----7-----|
a|----8-7-0-0-5-0--8-7-0-0-5-0--8-7-0-0-5-0--8-7-0-0-5-0---|
d|--------0-0---0------0-0---0------0-0---0------0-0---0---|

Riff B:
e|----0--0--0--0--0--0--0--0--0--0-16-----|
b|---16-16-16-16-16-16-16-16-16-16---16---|
g|----------------------------------------|
d|----------------------------------------|
a|----------------------------------------|
d|----------------------------------------|
Tap to rate this tab
# A B C D E F G H I J K L M N O P Q R S T U V W X Y Z