Guitaretab - guitar tabs
Song name
# A B C D E F G H I J K L M N O P Q R S T U V W X Y Z

Harlem Yu - Qing Fei De Yi tab

This is my first time writing a tab, so i hope you'll like it. This is a beautiful song
and i hope you'll enjoy it as much as i do.

Qing Fei De Yi / Harlem Yu
Tab by: Jon Sim

Standard tuning (EADGBe)

Intro:

   C                  G      Am          F      Em              
e:---0-x-0----0-x-0-|---3-x--0~--0-x-0-|---1-x--0~--0-x-0-|
B:---1-x-1----1-x-1-|---3-x--1~--1-x-1-|---1-x--0~--0-x-0-|
G:---0-x-0----0-x-0-|---0-x--2~--2-x-2-|---2-x--0~--0-x-0-|
D:------------------|------------------|-3----------------|
A:-3--------3-------|--------0~--------|------------------|
E:------------------|-3----------------|--------0~--------|

   F      G             C                  C
e:---1-x--3~--3-x-3-|---0-x-0----0-x-0-|---0-x-0----0-x-0-|
B:---1-x--3~--3-x-3-|---1-x-1----1-x-1-|---1-x-1----1-x-1-|
G:---2-x--0~--0-x-0-|---0-x-0----0-x-0-|---0-x-0----0-x-0-|
D:-3----------------|------------------|------------------|
A:------------------|-3--------3-------|-3--------3-------|
E:--------3~--------|------------------|------------------|

Verse:

   C                  G                  Am  
e:---0-x-0----0-x-0-|---3-x-3----3-x-3-|---0-x-0----0-x-0-|
B:---1-x-1----1-x-1-|---3-x-3----3-x-3-|---1-x-1----1-x-1-|
G:---0-x-0----0-x-0-|---0-x-0----0-x-0-|---2-x-2----2-x-2-|
D:------------------|------------------|------------------|
A:-3--------3-------|------------------|-0--------0-------|
E:------------------|-3--------3-------|------------------|

   Em                 F                  Em
e:---0-x-0----0-x-0-|---1-x-1----1-x-1-|---0-x-0----0-x-0-|
B:---0-x-0----0-x-0-|---1-x-1----1-x-1-|---0-x-0----0-x-0-|
G:---0-x-0----0-x-0-|---2-x-2----2-x-2-|---0-x-0----0-x-0-|
D:------------------|-3--------3-------|------------------|
A:------------------|------------------|------------------|
E:-0--------0-------|------------------|-0--------0-------|

   F                  G
e:---1-x-1----1-x-1-|---3-x-3----3-x-3-|
B:---1-x-1----1-x-1-|---3-x-3----3-x-3-| Repeat 
G:---2-x-2----2-x-2-|---0-x-0----0-x-0-| Once
D:-3--------3-------|------------------| More
A:------------------|------------------|
E:------------------|-3--------3-------|

   G
e:-3~---------------|
B:-3~---------------|
G:-0~---------------|
D:-0~---------------|
A:-2~---------------|
E:-3~---------------|

Chorus: 

   C                  Em                 Am
e:---0-x-0----0-x-0-|---0-x-0----0-x-0-|---0-x-0----0-x-0-|
B:---1-x-1----1-x-1-|---0-x-0----0-x-0-|---1-x-1----1-x-1-|
G:---0-x-0----0-x-0-|---0-x-0----0-x-0-|---2-x-2----2-x-2-|
D:------------------|------------------|------------------|
A:-3--------3-------|------------------|-0--------0-------|
E:------------------|-0--------0-------|------------------|

   Em                 F                  Em
e:---0-x-0----0-x-0-|---1-x-1----1-x-1-|---0-x-0----0-x-0-|
B:---0-x-0----0-x-0-|---1-x-1----1-x-1-|---0-x-0----0-x-0-|
G:---0-x-0----0-x-0-|---2-x-2----2-x-2-|---0-x-0----0-x-0-|
D:------------------|-3--------3-------|------------------|
A:------------------|------------------|------------------|
E:-0--------0-------|------------------|-0--------0-------|

 1........                              2.........
   F                  G                  F        G
e:---1-x-1----1-x-1-|---3-x-3----3-x-3-|---1-x-1----3-x-3-|
B:---1-x-1----1-x-1-|---3-x-3----3-x-3-|---1-x-1----3-x-3-|
G:---2-x-2----2-x-2-|---0-x-0----0-x-0-|---2-x-2----0-x-0-|
D:-3--------3-------|------------------|-3----------------|
A:------------------|------------------|------------------|
E:------------------|-3--------3-------|----------3-------|
[ Tab from: http://www.guitaretab.com/h/harlem-yu/31590.html ]
   C
e:---0-x-1----0-x-0-|
B:---1-x-1----1-x-1-|
G:---0-x-0----0-x-0-|
D:------------------|
A:-3--------3-------|
E:------------------|

Solo:

e:-0-----------3-------|
B:-1-----1-3/5---5/3-1-|
G:-0---2---------------|
D:---------------------|
A:-3-------------------|
E:---------------------|

Bridge:

   Am                 Em                 F        G
e:---0-x-0----0-x-0-|---0-x-0----0-x-0-|---1-x-1----3-x-3-|
B:---2-x-2----2-x-2-|---0-x-0----0-x-0-|---1-x-1----3-x-3-|
G:---1-x-1----1-x-1-|---0-x-0----0-x-0-|---2-x-2----0-x-0-|
D:------------------|------------------|-3----------------|
A:-0--------0-------|------------------|------------------|
E:------------------|-0--------0-------|----------3-------|

   C           Em/B   Am                 Em
e:---0-x-0--0~--0~--|---0-x-0----0-x-0-|---0-x-0----0-x-0-|
B:---1-x-1--1~--1~--|---1-x-1----1-x-1-|---0-x-0----0-x-0-|
G:---2-x-2--2~--2~--|---2-x-2----2-x-2-|---0-x-0----0-x-0-|
D:------------------|------------------|------------------|
A:-3--------3~--2~--|-0--------0-------|------------------|
E:------------------|------------------|-0--------0-------|

   F                  G                  A
e:---1-x-1----1-x-1-|---3-x-3----3-x-3-|---0-x-0----0-x-0-|
B:---1-x-1----1-x-1-|---3-x-3----3-x-3-|---2-x-2----2-x-2-|
G:---2-x-2----2-x-2-|---0-x-0----0-x-0-|---2-x-2----2-x-2-|
D:-3--------3-------|------------------|------------------|
A:------------------|------------------|-0--------0-------|
E:------------------|-3--------3-------|------------------|

Last Chorus:

   D                  F#m                Bm
e:---2-x-2----2-x-2-|---2-x-2----2-x-2-|---0-x-0----0-x-0-|
B:---3-x-3----3-x-3-|---2-x-2----2-x-2-|---2-x-2----2-x-2-|
G:---2-x-2----2-x-2-|---2-x-2----2-x-2-|---4-x-4----4-x-4-|
D:-0--------0-------|------------------|------------------|
A:------------------|------------------|-2--------2-------|
E:------------------|-2--------2-------|------------------|

   F#m                G                  F#m
e:---2-x-2----2-x-2-|---3-x-3----3-x-3-|---2-x-2----2-x-2-|
B:---2-x-2----2-x-2-|---3-x-3----3-x-3-|---2-x-2----2-x-2-|
G:---2-x-2----2-x-2-|---0-x-0----0-x-0-|---2-x-2----2-x-2-|
D:------------------|------------------|------------------|
A:------------------|------------------|------------------|
E:-2--------2-------|-3--------3-------|-2--------2-------|

  1.........                            2.........
   G                  A                  G        A
e:---3-x-3----3-x-3-|---0-x-0----0-x-0-|---3-x-3----0-x-0-|
B:---3-x-3----3-x-3-|---2-x-2----2-x-2-|---3-x-3----2-x-2-|
G:---0-x-0----0-x-0-|---2-x-2----2-x-2-|---0-x-0----2-x-2-|
D:------------------|------------------|------------------|
A:------------------|-0--------0-------|----------0-------|
E:-3--------3-------|------------------|-3----------------|

Outro:

   D                  A        Bm        G        F#m
e:---2-x-2----2-x-2-|---0-x-0----0-x-0-|---3-x-3----2-x-2-|
B:---3-x-3----3-x-3-|---2-x-2----2-x-2-|---3-x-3----2-x-2-|
G:---2-x-2----2-x-2-|---2-x-2----4-x-4-|---0-x-0----2-x-2-|
D:-0--------0-------|------------------|------------------|
A:------------------|-0--------2-------|------------------|
E:------------------|------------------|-3--------2-------|

e:---3-x-3----0-x-0-|
B:---3-x-3----2-x-2-| Repeat 
G:---0-x-0----2-x-2-| Once
D:------------------| More
A:----------0-------|
E:-3----------------|

e:-2~---------------|
B:-3~---------------|
G:-2~---------------|
D:-0~---------------|
A:------------------|
E:------------------|

Please comment it, bad or good, both are welcome.. And please rate this~~
Thanks A Lot!!
Qing Fei De Yi chords by Harlem Yu