Song name
# A B C D E F G H I J K L M N O P Q R S T U V W X Y Z

Harlem Yu - Qing Fei De Yi tab

-----------------------------------------------------------------------------
                        Qing Fei De Yi - Harlem Yu
-----------------------------------------------------------------------------

Tabbed by: nareshk
E-mail: inaresh.online@gmail.com

Tuning: Standard

Er, I think I got it right for the most part. Hope you like it :D

*****************************************************************************

h - hammer
/ - slide up
\ - slide down

|| is one bar, example |G| is play one bar of G

*****************************************************************************

e----------------------------|
B-----------------8----------|
G---------5--7/9-----9\7--5--|
D--5--h7---------------------|
A----------------------------|
E----------------------------|

Strum |G| |A|

e-----------------------------|
B-----------------------------|
G--------------5-7-9-7-5-4-5--|
D--3-5-7-5-7-9----------------|
A-----------------------------|
E-----------------------------|

e----------------------------|
B-----------------8----------|
G---------5--7/9-----9\7--5--|
D--5--h7---------------------|
A----------------------------|
E----------------------------|

Strum |G| |A|

e------------------------------|
B------------------------------|
G--------------5-7-9-7-9-10-9--|
D--3-5-7-5-7-9-----------------|
A------------------------------|
E------------------------------|
Tap to rate this tab
 
# A B C D E F G H I J K L M N O P Q R S T U V W X Y Z