Song name
# A B C D E F G H I J K L M N O P Q R S T U V W X Y Z

Harlem - Gay Human Bones tab

NJoy Y'all!

http://www.myspace.com/harlemduh
	twitter @harlemwhateverr

Intro:
Just pick theze individual stringz
E---------------------------------------------------------------------------|
B---------------------------------------------------------------------------|
G-----------2-0-------------------------------------------------------------|
D-------0-0----3-0------------0--3-0----------------------------------------|
A----3-3-------------------3-3------3--0------------------------------------|
E-1-1------------------1-1----------------3---1---3-------------------------|

Then Strum: F C Dm A (Barred)

Verse:
E----------------------------------------------------------------------------|
B-----------6----------------------------------------------------------------|
G-2----5----7--6-------------------------------------------------------------|
D-3----5----7--7-------------------------------------------------------------|
A-3----3----5--7-------------------------------------------------------------|
E-1------------5-------------------------------------------------------------|


Chorus: Bd G F A (All Barred)
Tap to rate this tab
# A B C D E F G H I J K L M N O P Q R S T U V W X Y Z