Song name
# A B C D E F G H I J K L M N O P Q R S T U V W X Y Z

Harlem - Gay Human Bones tab

-------------------------------------------------------------------------- 
SONG NAME: Gay Human Bones - Band Name: Harlem
-------------------------------------------------------------------------------
Tabbed by: William M.


Tuning: Standard

e|-------------------------------------------------------------------------|
B|-------------------------------------------------------------------------|
G|------------------------2--0---------------------------------------------|
D|------------------------------3--0-------------------3-------------------|
A|---------3---3---5---5-------------------3---3----5------5---3-----------|
E|---1--1----------------------------1--1--------------------------5--3--1-|

Tap to rate this tab
 
# A B C D E F G H I J K L M N O P Q R S T U V W X Y Z