Song name
# A B C D E F G H I J K L M N O P Q R S T U V W X Y Z

Harlem - Friendly Ghost tab

|----------------|
|----------------|
|--6-6-6-6-6-5---|
|--7-7-7-7-7-7---|  X4
|--7-7-7-7-7-7---|
|----------------|

|-----------------|
|-----------------|
|--4-4-4-4-4-3----|
|--5-5-5-5-5-5----|
|--5-5-5-5-5-5----| X4
|-----------------|

better than the other tab.. just the intro piece tooooooooooooooooo  
shooooooooooooooooorrrrrrrrrrrrrrrrrrrrrttttttttttttttttttttttt - awall
Tap to rate this tab
 
# A B C D E F G H I J K L M N O P Q R S T U V W X Y Z