Song name
# A B C D E F G H I J K L M N O P Q R S T U V W X Y Z

Harlem - Beautiful And Very Smart tab

Tabbed by:SAMEER SHARMA
E-mail: soccersameer@yahoo.com

Tuning:Standard
INTRO AND VERSE
e|---------------------------------------------------------------------------|
B|----------------3/5--------------------------------------------------------|
G|---------2--------------2--------------------------------------------------|
D|-2-x8---3--x2---------3---X2-----------------------------------------------|
A|3--------------------------------------------------------------------------|
E|---------------------------------------------------------------------------|
PRE-CHORUS
e|--------2-------------------------------------------------------------------|
B|--1-----3-------------------------------------------------------------------|
G|--3-----2-------------------------------------------------------------------|
D|--2-X8----------------------------------------------------------------------|
A|--3-------------------------------------------------------------------------|
E|----------------------------------------------------------------------------|

The chorus is just back and forth on those last two chords
Tap to rate this tab
# A B C D E F G H I J K L M N O P Q R S T U V W X Y Z