Song name
# A B C D E F G H I J K L M N O P Q R S T U V W X Y Z

Harley And Cockney Rebel - Come Up & See Me tab

Intro

E |--------------------------------------------|
B |--------------------------------------------|
G |----------------0-2-4-5-4--0----------------|
D |----------0-2-3---------------5-5-5-5--3-5--|
A |----0-2-3---------------------5-5-5-5--3-3--|
E |--3---------------------------3-3-3-3--1-3--|

Verse x2

E |-----------------------------------------------------------|
B |----------5-----------------------5------------------------|
G |--2-------5-------4-------2-------5-------4-4-4-4-4-4-4-4--|
D |--3-------5-------5-------3-------5-------5-5-5-5-5-5-5-5--|
A |--3-------3-------5-------3-------3-------5-5-5-5-5-5-5-5--|
E |--1---------------3-------1---------------3-3-3-3-3-3-3-3--|

Bridge


E |--------------------------------------------------|
B |----------5---------------5-----------------------|
G |--2-------5-------2-------5-------4-------4-------|
D |--3-------5-------3-------5-------5-------5-------|
A |--3-------3-------3-------3-------5-------5-------|
E |--1---------------1---------------3-------3-------|

Chorus

E |--1-------1-------0-------1-------1-------1-------0-------1-1-1-1-1-1-1-1|
B |--3-------1-------1-------0-------3-------1-------1-------0-0-0-0-0-0-0-0|
G |--2-------2-------0-------0-------2-------2-------0-------0-0-0-0-0-0-0-0|
D |--0-------3-------2-------0-------0-------3-------2-------0-0-0-0-0-0-0-0|
A |------------------3-------2-----------------------3-------2-2-2-2-2-2-2-2|
E |--------------------------3-----------------------3-------3-3-3-3-3-3-3-3|

Verse x2

Bridge

Chorus

E |--1-------1-------0-------1-------1-------1-------0-------1-1-1-1-1-1-1-1|
B |--3-------1-------1-------0-------3-------1-------1-------0-0-0-0-0-0-0-0|
G |--2-------2-------0-------0-------2-------2-------0-------0-0-0-0-0-0-0-0|
D |--0-------3-------2-------0-------0-------3-------2-------0-0-0-0-0-0-0-0|
A |------------------3-------2-----------------------3-------2-2-2-2-2-2-2-2|
E |--------------------------3-----------------------3-------3-3-3-3-3-3-3-3|

Solo (finger pick chords)
 
E |--1-------0-------1-------0-------0-------3-------3-------3-------|
B |--1-------0-------1-------0-------0-------0-------0-------0-------|
G |--2-------0-------2-------2-------0-------0-------0-------0-------|
D |--3-------2-------3-------2-------2-------0-------0-------0-------|
A |----------2-----------------------2-------2-------2-------2-------|
E |------------------------------------------3-------3-------3-------|


E |--1-------1-------0-------1-------1-------1-------0-------1-1-1-1-1-1-1-1|
B |--3-------1-------1-------0-------3-------1-------1-------0-0-0-0-0-0-0-0|
G |--2-------2-------0-------0-------2-------2-------0-------0-0-0-0-0-0-0-0|
D |--0-------3-------2-------0-------0-------3-------2-------0-0-0-0-0-0-0-0|
A |------------------3-------2-----------------------3-------2-2-2-2-2-2-2-2|
E |--------------------------3-------------------------------3-3-3-3-3-3-3-3|


Verse x2

E |-----------------------------------------------------------|
B |----------5-----------------------5------------------------|
G |--2-------5-------4-------2-------5-------4-4-4-4-4-4-4-4--|
D |--3-------5-------5-------3-------5-------5-5-5-5-5-5-5-5--|
A |--3-------3-------5-------3-------3-------5-5-5-5-5-5-5-5--|
E |--1---------------3-------1---------------3-3-3-3-3-3-3-3--|

Bridge

E |--------------------------------------------------|
B |----------5---------------5-----------------------|
G |--2-------5-------2-------5-------4-------4-------|
D |--3-------5-------3-------5-------5-------5-------|
A |--3-------3-------3-------3-------5-------5-------|
E |--1---------------1---------------3-------3-------|

Chorus

E |--1-------1-------0-------1-------1-------1-------0-------1-1-1-1-1-1-1-1|
B |--3-------1-------1-------0-------3-------1-------1-------0-0-0-0-0-0-0-0|
G |--2-------2-------0-------0-------2-------2-------0-------0-0-0-0-0-0-0-0|
D |--0-------3-------2-------0-------0-------3-------2-------0-0-0-0-0-0-0-0|
A |------------------3-------2-----------------------3-------2-2-2-2-2-2-2-2|
E |--------------------------3-----------------------3-------3-3-3-3-3-3-3-3|

Bridge

Chorus

Bridge		(to fade)
Tap to rate this tab
# A B C D E F G H I J K L M N O P Q R S T U V W X Y Z