Guitaretab - guitar tabs
Song name
# A B C D E F G H I J K L M N O P Q R S T U V W X Y Z

Harley Steve - Make Me Smile tab

Make Me Smile (Come Up And See Me) (With Solo)
Steve Harley/Cockney Rebel

Notes : Guitar Solo :

I Tabbed this out, since in my opinion it's a really integral part of the
song, it just doesn't sound right with an improvised part here :)

This is a pretty close approximation of the acoustic solo in the song.
The 'Dots' in bars 10 and 16 (.........) represent the fast (16ths I think)
Picking on the note before the dots.

The solo comes in from a pause in the music - hence the 'no chord'
First bar (though it's an 'implied' G in the pause)

The slashes between notes suggest slides/hammers/pulls, / is up, \is down.

(I've 'abbreviated' the lyrics to save space, and they're already
 available on this site anyways)

[Intro]

   (G chord run-up)
E|-----------------------------|---------------|
B|--------------------0-1-0----|--0-1-0-1-0----|
G|---------------0--2--------0-|-2------2-0----|
D|---------0-2-3---------------|---------------|
A|---0-2-3---------------------|---------------|
E|-3---------------------------|---------------|

[Verse 1]

                F    C        G          F      C       G (for 3 bars)
You've done it all...broken...code...  ...And...rebel...floor...(ba ba ba ba x4)
                  F      C        G       F      C       G
You've spoilt the game...matter...say,  ...For...metal...bore...

F            C            F      C      G (2 bars)
...Blue eyes blue eyes, ...how...tell...lies...

[CHORUS]  Dm        F     C     G     Dm       F      C    G (Dead Stop!)
          ...Come...see...smi...ile  ...I'll...want...wi...ild

[Verse 2]
                F      C      G       F       C       G (for 3 bars)
There's nothing left...gone...away ...Maybe...tarry...while
            F      C      G        F     C      G (2 bars)
It's just a test...game...play, ...Win...lose...smile,

F       C          F         C      G(2 bars)
Resist, resist, ...history...self...hide...oh-ohh...

[REPEAT CHORUS]

[Guitar Solo :] 
(The Chords are F /Em/F /Am/  Em/Em/G /G /  Dm/F /C /G /  Dm/F /C /G /

  (No Chord)      F                Em             F
E|----------------|----------------|--------------|-----------------|
B|----------------|----------------|--------------|-----------------|
G|----------------|----------------|--------------|-----------------|
D|----------7-5-7-|-7-5-7-7--5-7-5-|-5--5-3-2-3-5-|-3-2-0-3---2-0-0-|
A|----------------|----------------|--------------|-----------------|
E|----------------|----------------|--------------|-----------------|
  Am       Em          Em             G                     G
E|--------|-----------|--------------|------------12-12-12-|--12-13-15--|
B|--------|-----------|------8-10-10-|-10-8/10\8-----------|------------|
G|--------|-----------|--7-9---------|---------------------|------------|
D|0-------|-------5-7-|-9------------|---------------------|------------|
A|--3-3---|---5/7-----|--------------|---------------------|------------|
E|--------|-----------|--------------|---------------------|------------|

  Dm           F                   C
E|-15...13-12-|-13-12-------------|--------------------|
B|------------|-------13-13-12----|--------------------|                  
G|------------|----------------14-|-12--12-10-9-10-12--|
D|------------|-------------------|--------------------|
A|------------|-------------------|--------------------|
E|------------|-------------------|--------------------|
  G                    Dm                      F
E|--------------------|-13-12-----------------|------------------|
B|--------------------|-------14-13-12/13\12--|------------------|
G|-12-10-9------------|-----------------------|-14-12-10-9-10-12-|
D|---------12-10-9-12-|-----------------------|------------------|
A|--------------------|-----------------------|------------------|
E|--------------------|-----------------------|------------------|
  C           G               G (Stop dead)
E|-----------|---------------|-----------|
B|-----------|---------------|-----------|
G|-12...10-9-|-7-5\4/5-5-4-0-|-0---------|
D|-----------|---------------|-----------|
A|-----------|---------------|-----------|
E|-----------|---------------|-----------|

[Verse 3]
               F      C       G         F      C               G (for 3 bars)
There ain't no more...taken...thing, ...From...belief...mother earth,
           F      C       G        F      C       G (for 2 bars)
Can you ignore...faith...thing, ...'cos...faith...worth...

F       C      F        C       G (for 2 bars)
...Away, away, ...and...maybe...try...

[REPEAT CHORUS]

[Plays out on] :
F     C                F    C             G (for 2 bars)
[Oooh Ooh-oh la la la  Oooh Ooh la la la  Oooaaaahhhh...
Dm     F   C    G        Dm     F    C   G      
Come...see...smi...le    I'll...want...wi...ld...]

Repeat to fade...


[ Tab from: http://www.guitaretab.com/h/harley-steve/23388.html ]