Song name
# A B C D E F G H I J K L M N O P Q R S T U V W X Y Z

Harms Way - Mind Control tab

-------------------------- Mind Control  Harms Way----------------------------
Tabbed by: RapingZombies
Tuning: Drop  B (B Gb B E Ab Db)
Email: mario1@live.com.au   Email me if you see any mistakes so I can fix them.

Key:
| /  slide down
| ~  vibrato
| *  harmonic
| . palm mute

Intro 
Db|------------------------------------------------------|
Ab|------------------------------------------------------|
E |------------------------------------------------------|     
B |-4----0----------------------------444455554444-------|
Gb|-4----0--------555566665555---------------------------|
B |-4----0-----------------------------------------------| X4 
on the 4th time instead of 4 5 4 do this:

Db|--------------------------------------|
Ab|--------------------------------------|
E |--------------------------------------|     
B |--------------------------------------|
Gb|---5-6-5-------4---7---3---4---1---3--|
B |-----------7---4---7---3---4---1---3--|
                  .   .   .   .   .   .   
 
Db|--------------------------------------------------|
Ab|--------------------------------------------------|
E |--------------------------------------------------|     
B |---0-----------0-----------0----------------------|
Gb|0--0-----0--0--0-----0--0--0------0---5-6-5-------|
B |0--0-----0--0--0-----0--0--0------0-----------7---|
   .        .  .        .  .         .
Db|----------------------------------------|
Ab|----------------------------------------|
E |----------------------------------------|     
B |---0-----------0------------------------|
Gb|0--0-----0--0--0------555566665559999---|
B |0--0-----0--0--0------------------------|
   .        .  .             
Db|-------------------------------------------------|
Ab|-------------------------------------------------|
E |-------------------------------------------------|     
B |---0-----------0-----------0---------------------|
Gb|0--0-----0--0--0-----0--0--0------0---5-6-5------|
B |0--0-----0--0--0-----0--0--0------0-----------7--|
        .            .     .             .   .               .
Db|---------------------------------------------|
Ab|---------------------------------------------|
E |---------------------------------------------|     
B |---0-----------0-------------------44445555--|
Gb|0--0-----0--0--0------55556666---------------|
B |0--0-----0--0--0-----------------------------|
   .        .  .             


Db|----------------------------------------------------|
Ab|----------------------------------------------------|
E |----------------------------------------------------|     
B |---0-----------0-----------0------------------------|
Gb|0--0-----0--0--0-----0--0--0------0---5-6-5---------|
B |0--0-----0--0--0-----0--0--0------0-----------7-----|
   .        .  .        .  .         .
Db|---------------------------------------|
Ab|---------------------------------------|
E |---------------------------------------|     
B |---0-----------0-----------------------|
Gb|0--0-----0--0--0------555566665559999--|
B |0--0-----0--0--0-----------------------|
   .        .  .             
Db|--------------------------------------------------------|
Ab|--------------------------------------------------------|
E |--------------------------------------------------------|     
B |---0-----------0-----------0----------------------------|
Gb|0--0-----0--0--0-----0--0--0------0---5-6-5-------------|
B |0--0-----0--0--0-----0--0--0------0-----------7---------|
   .        .  .        .  .         .

Db|----------------------------------|
Ab|----------------------------------|
E |----------------------------------|     
B |---0-----------0------------------|
Gb|0--0-----0--0--0------------------|
B |0--0-----0--0--0----0-------------|
   .        .  .  

Db|---------------------------------------------------------------|
Ab|---------------------------------------------------------------|
E |---------------------------------------------------------------|     
B |---------------------------------------------------------------|
Gb|----------------3----------------------------------------------|
B |0----0-0-3-5-0------0-0-0-3-5-0-1------------------------------| X3

Db|---------------------------------------------------------------|
Ab|---------------------------------------------------------------|
E |---------------------------------------------------------------|     
B |---------------------------------------------------------------|
Gb|----------------3----3-5-3----1-3-1------------------------|
B |0----0-0-3-5-0-------3-5-3----1-31--------------------------|

Db|------------------------------------------------------|
Ab|------------------------------------------------------|
E |------------------------------------------------------|     
B |---------------------444455554444---------4---0-------|
Gb|-555566665555-----------------------------4---0-------|
B |------------------------------------------4---0-------|

Db|---------------------------------------------------------------|
Ab|---------------------------------------------------------------|
E |---------------------------------------------------------------|     
B |---0-----------0-----------0------------------------------|
Gb|0--0-----0--0--0-----0--0--0------0---5-6-5-------------|
B |0--0-----0--0--0-----0--0--0------0-----------7----------|
   .        .  .        .  .         .

Db|-----------------------------------------|
Ab|-----------------------------------------|
E |-----------------------------------------|     
B |---0-----------0-------------------------|
Gb|0--0-----0--0--0------555566665559999----|
B |0--0-----0--0--0-------------------------|
   .        .  .             
Db|-----------------------------------------------------|
Ab|-----------------------------------------------------|
E |-----------------------------------------------------|     
B |---0-----------0-----------0-------------------------|
Gb|0--0-----0--0--0-----0--0--0------0---5-6-5----------|
B |0--0-----0--0--0-----0--0--0------0-----------7------|
   .        .  .        .  .         .

Db|---------------------------5----|
Ab|---------------------------5----|
E |---------------------------5----|     
B |---0-----------0----------------|
Gb|0--0-----0--0--0----------------|
B |0--0-----0--0--0----------------|
   .        .  .              *                                          

Db|-----------------------------------------------------|
Ab|-----------------------------------------------------|
E |-----------------------------------------------------|     
B |---0-----------0-----------0-------------------------|
Gb|0--0-----0--0--0-----0--0--0------0---5-6-5----------|
B |0--0-----0--0--0-----0--0--0------0-----------7------|
   .        .  .        .  .         .
     
Db|-----------------------------------------|
Ab|-----------------------------------------|
E |-----------------------------------------|     
B |---0-----------0-------------------------|
Gb|0--0-----0--0--0------555566665559999----|
B |0--0-----0--0--0-------------------------|
   .        .  .                

Db|-----------------------------------------------------|
Ab|-----------------------------------------------------|
E |-----------------------------------------------------|     
B |---0-----------0-----------0-------------------------|
Gb|0--0-----0--0--0-----0--0--0------0---5-6-5----------|
B |0--0-----0--0--0-----0--0--0------0-----------7------|
   .        .  .        .  .         .
Db|----------------------------------------------------------|
Ab|----------------------------------------------------------|
E |----------------------------------------------------------|     
B |---0-----------0------------------------------------------|
Gb|0--0-----0--0--0------------------------------------------|
B |0--0-----0--0--0------------------------------------------|
   .        .  .                                                         

Db|---------------------------------------------------------------|
Ab|---------------------------------------------------------------|
E |---------------------------------------------------------------|     
B |---------------------------------------------------------------|
Gb|-------------------3-------------------------------------------|
B |0----0-0-3-5-0------0-0-0-3-5-0-1------------------------------|
 X4 except end the last 1 with a power chord 

Db|-----------------------------------------------------------------------|
Ab|-----------------------------------------------------------------------|
E |-----------------------------------------------------------------------|     
B |0------1------4----------------0------------------------------------5/-|
Gb|0------1------4-----5^---------0-------------------------------0----5/-|
B |0------1------4----------------0--------000--000--000--000-----0----5/-| X4
                                           ...  ...  ...  ...     .
Db|-------------------------|           |------------------------------------------------------|
Ab|-------------------------|           |------------------------------------------------------|
E |-------------------------|Only once  |------------------------------------------------------|
B |0------1------4----------|           |------------------------------------------------------|
Gb|0------1------4-----5^---|           |------------------------------------------------------|
B |0------1------4----------|           |---------0-1-3-0-1-4-0-1-3-0-1-4-0-1-3~---------------|X4


Db|-------------------------|           |---------------------------------------------------|
Ab|-------------------------|           |---------------------------------------------------|
E |-------------------------|Only once  |---------------------------------------------------|     
B |0------1------4----------|           |---------------------------------------------------|
Gb|0------1------4-----5^---|           |---------0-1-3-0-1-4-0-1-3-0-1-4-0-1-3-------------| 
B |0------1------4----------|           |---------0-1-3-0-1-4-0-1-3-0-1-4-0-1-3-------------| X4
                                                  . . . . . . . . . . . . . .  

Db|------------------------|            
Ab|------------------------|            
E |------------------------|    
B |0------1------4---------|           
Gb|0------1------4-----5^--|         
B |0------1------4---------|                                                     
Tap to rate this tab
# A B C D E F G H I J K L M N O P Q R S T U V W X Y Z