Guitaretab - guitar tabs
Song name
# A B C D E F G H I J K L M N O P Q R S T U V W X Y Z

Harold Faltermeyer - Memories tab

Title: Memories
Artist: Harold Faltermeyer

This is a song from TOP GUN.
It's the entire song.

|----------------------------12---10-----------------------------------------|
|---6---5----------------------------13-11-10-10-8---------------12-12-10-8--|
|---------7-5--8-8-7-8----12-----------------------10----10-9-8--------------|
|-7--------------------------------------------------------------------------|
|----------------------------------------------------------------------------|
|----------------------------------------------------------------------------|

|----------------------------------------------------------------------------|
|----------------------------------------------------------------------------|
|-11-11-9-9-8---9-11-12--14-16-7----9-11-12-12----14--16--7----9-11-12-12----|
|----------------------------------------------------------------------------|
|----------------------------------------------------------------------------|
|----------------------------------------------------------------------------|

|----------------------------12---10-----------------------------------------|
|---6---5----------------------------13-11-10-10-8---------------12-12-10-8--|
|---------7-5--8-8-7-8----12-----------------------10----10-9-8--------------|
|-7--------------------------------------------------------------------------|
|----------------------------------------------------------------------------|
|----------------------------------------------------------------------------|
[ Tab from: http://www.guitaretab.com/h/harold-faltermeyer/175365.html ]
|----------------------------------------------------------------------------|
|----------------------------------------------------------------------------|
|-11-11-9-9-8---9-11-12--14-16-7----9-11-12-12-------------------------------|
|----------------------------------------------------------------------------|
|----------------------------------------------------------------------------|
|----------------------------------------------------------------------------|

|----------------------------12---10-----------------------------------------|
|---6---5----------------------------13-11-10-10-8---------------12-12-10-8--|
|---------7-5--8-8-7-8----12-----------------------10----10-9-8--------------|
|-7--------------------------------------------------------------------------|
|----------------------------------------------------------------------------|
|----------------------------------------------------------------------------|

|----------------------------------------------------------------------------|
|----------------------------------------------------------------------------|
|-11-11-9-9-8---9-11-12-12-11-11-9-9-8-8----8--------------------------------|
|----------------------------------------11----------------------------------|
|----------------------------------------------------------------------------|
|----------------------------------------------------------------------------|

|----------------------------12---10-----------------------------------------|
|---6---5----------------------------13-11-10-10-8---------------12-12-10-8--|
|---------7-5--8-8-7-8----12-----------------------10--10-9-8----------------|
|-7--------------------------------------------------------------------------|
|----------------------------------------------------------------------------|
|----------------------------------------------------------------------------|
Related for Memories tab